Clairo Sofia Guitar Chords #the best chords

Welcome to the world of Chords. Today I will introduce you to a very beautiful and interesting chord. It's Sofia Guitar Chords. Practice with them and let me know the results

[Intro]

F G Em Am  x2

 F                          G                 Em               Am

e|-8--8--8--8--8--8--8--8--|-7-7-7-7-7-7-7-7-|-3-3-3-3-3-3-3-3-|-5-5-5-5-5-5-5-5-|

B|-10-10-10-10-10-10-10-10-|-8-8-8-8-8-8-8-8-|-5-5-5-5-5-5-5-5-|-5-5-5-5-5-5-5-5-|

G|-10-10-10-10-10-10-10-10-|-7-7-7-7-7-7-7-7-|-4-4-4-4-4-4-4-4-|-5-5-5-5-5-5-5-5-|  (x2)

D|-------------------------|-----------------|-----------------|-----------------|

A|-------------------------|-----------------|-----------------|-----------------|

E|-------------------------|-----------------|-----------------|-----------------|

[Verse]

F                               G

I think we could do it if we tried

           Em         Am

If only to say, you're mine

  F                     G

Sofia, know that you and I

          Em          Am

Shouldn't feel like a crime

[Chorus]

F                               G

I think we could do it if we tried

           Em         Am

If only to say, you're mine

  F                     G

Sofia, know that you and I

          Em          Am

Shouldn't feel like a crime

[Verse]

    F

You know

    G       Em             Am

I'll do anything you ask me to

   F      G

But oh my God

  Em                    Am

I think I'm in love with you

F

Standing here alone now

G

Think that we can drive around

Em

I just want to say

      Am

How I love you with your hair down

F

Baby you don't got to fight

    G

I'll be here til the end of time

Em

Wishing that you were mine

Am

Pull you in, it's alright

[Chorus]

F                               G

I think we could do it if we tried

          Em         Am

If only to say, you're mine

  F                     G

Sofia, know that you and I

          Em          Am

Shouldn't feel like a crime

[Instrumental]

F G Em Am  x2

  F               G         Em       Am  F               G         Em     Am

e|--------------------------------------|---------------------------------------------|

B|-6-6-6-6-6-5-3-----------3-5-----3----|-6-6-6-6-6-5-3-----------3-5-----3-----------|

G|---------------5-4---4-5-------5---2--|---------------5-4---4-5-------5---2-0-2/0---|

D|--------------------------------------|---------------------------------------------|

A|--------------------------------------|---------------------------------------------|

G|--------------------------------------|---------------------------------------------|

[Bridge]

F                   G

Honey, I don't want it to fade

       Em                        Am

There's things that I know could get in the way

    F                G

But, I don't want to say goodbye

   Em                     Am

And I think that we could do it if we tried

[Chorus]

F                               G

I think we could do it if we tried

           Em         Am

If only to say, you're mine

  F                     G

Sofia, know that you and I

          Em          Am

Shouldn't feel like a crime

[Outro]

F                 G           Em Am

I think we could do it if we tried

F                 G           Em Am

I think we could do it if we tried

  F              G

Sofia, know that you and I

          Em           Am

Shouldn't feel like a crime

  F              G

Sofia, know that you and I

Em           Am

       ooh, ooh

Bravo! very good! Sofia Guitar Chords. It's a good chord, isn't it? You did it well, now perform it for your friends, lover or family to enjoy. I think you will get compliments from them.

0
0 ratings