Southern Nights Guitar Chords + Tutorial

Are you looking for Southern Nights Chords And Lyrics? Here, we have for you all about chords, lyrics and information of that song. Sit back and relax while I show you how to play with these chords.

Intro

Guitar 1:

e|------0-2-4-2-0----|------0-2-4-2-0----|------0-2-4-2-0----|

B|--0-2-----------2--|--0-2-----------2--|--0-2-----------2--|

G|-------------------|-------------------|-------------------|

D|-------------------|-------------------|-------------------|

A|-------------------|-------------------|-------------------|

E|-------------------|-------------------|-------------------|

e|--3-2-0--------------|

B|--------3-0----------|

G|------------3-2-0----|

D|------------------2--|

A|---------------------|

E|---------------------|

Guitar 2:

e|-------------------|-------------------|------------------|

B|-------------------|-------------------|------------------|

G|----------1--------|----------1--------|---------1--------|

D|------2-4---4-2----|------2-4---4-2----|-----2-4---4-2----|

A|--2-4-----------4--|--2-4-----------4--|-2-4-----------4--|

E|-------------------|-------------------|------------------|

e|---------------------|

B|---------------------|

G|---------------------|

D|----------------1-2--|

A|------0-1-2-3-4------|

E|--2-3----------------|

Verse 1

E                C#                     F#7

Southern Nights, have you ever felt the southern night?

A

Free as a breeze, not to mention the trees, whistling

G#m                          B7

tunes that you know and love so.

E               C#                      F#7

Southern Nights, just as good even when closed your eyes.

     A              G#m

I apologize, to any one who can truly say

            B7

that he has found a better way.

Guitar 1:

e|------0-2-4-2-0----|------0-2-4-2-0----|------0-2-4-2-0----|

B|--0-2-----------2--|--0-2-----------2--|--0-2-----------2--|

G|-------------------|-------------------|-------------------|

D|-------------------|-------------------|-------------------|

A|-------------------|-------------------|-------------------|

E|-------------------|-------------------|-------------------|

e|--3-2-0--------------|

B|--------3-0----------|

G|------------3-2-0----|

D|------------------2--|

A|---------------------|

E|---------------------|

Guitar 2:

e|-------------------|-------------------|------------------|

B|-------------------|-------------------|------------------|

G|----------1--------|----------1--------|---------1--------|

D|------2-4---4-2----|------2-4---4-2----|-----2-4---4-2----|

A|--2-4-----------4--|--2-4-----------4--|-2-4-----------4--|

E|-------------------|-------------------|------------------|

e|---------------------|

B|---------------------|

G|---------------------|

D|----------------1-2--|

A|------0-1-2-3-4------|

E|--2-3----------------|

Verse 2

E               C#                    F#7

Southern Skies, have you ever noticed southern skies?

A

It's precious beauty lies just beyond the eye.

       G#m                                B7

It goes running through your soul like the stories told of old.

E        C#                             F#7

Old man, he and his dog that walked the old land.

      A

Every flower touched his cold hand.

     G#m                        B7                   E

As he slowly walked by, weeping willows would cry for joy.

Guitar 1:

e|------0-2-4-2-0----|------0-2-4-2-0----|------0-2-4-2-0----|

B|--0-2-----------2--|--0-2-----------2--|--0-2-----------2--|

G|-------------------|-------------------|-------------------|

D|-------------------|-------------------|-------------------|

A|-------------------|-------------------|-------------------|

E|-------------------|-------------------|-------------------|

e|--3-2-0--------------|

B|--------3-0----------|

G|------------3-2-0----|

D|------------------2--|

A|---------------------|

E|---------------------|

Guitar 2:

e|-------------------|-------------------|------------------|

B|-------------------|-------------------|------------------|

G|----------1--------|----------1--------|---------1--------|

D|------2-4---4-2----|------2-4---4-2----|-----2-4---4-2----|

A|--2-4-----------4--|--2-4-----------4--|-2-4-----------4--|

E|-------------------|-------------------|------------------|

e|---------------------|

B|---------------------|

G|---------------------|

D|----------------1-2--|

A|------0-1-2-3-4------|

E|--2-3----------------|

Verse 3

E              C#

Feels so good, feels so good it's frightening.

F#7

Wish I could, stop this world from fighting.

A

La da da da da da la da da da  da da 

G#m                 B7

da da da da da da   da da da da

E          C#                        F#7

Mysteries, like this and many others in the trees.

A                         B7       E

Blow in the night, in the southern skies.

Guitar 1:

e|------0-2-4-2-0----|------0-2-4-2-0----|------0-2-4-2-0----|

B|--0-2-----------2--|--0-2-----------2--|--0-2-----------2--|

G|-------------------|-------------------|-------------------|

D|-------------------|-------------------|-------------------|

A|-------------------|-------------------|-------------------|

E|-------------------|-------------------|-------------------|

e|--3-2-0--------------|

B|--------3-0----------|

G|------------3-2-0----|

D|------------------2--|

A|---------------------|

E|---------------------|

Guitar 2:

e|-------------------|-------------------|------------------|

B|-------------------|-------------------|------------------|

G|----------1--------|----------1--------|---------1--------|

D|------2-4---4-2----|------2-4---4-2----|-----2-4---4-2----|

A|--2-4-----------4--|--2-4-----------4--|-2-4-----------4--|

E|-------------------|-------------------|------------------|

e|---------------------|

B|---------------------|

G|---------------------|

D|----------------1-2--|

A|------0-1-2-3-4------|

E|--2-3----------------|

Outro

E                C#

Southern nights, they feel so good it's frightening 

F#7

wish I could stop this world from fighting.

A

la da da da da da la da da da da da

G#m                             B7

da da da da da la da da da da  da da da da  fade

flyinglibra51

God Bless Glen Travis Campbell

Focus on chords interleaving, you just need to practice day by day. I believe that you can play this song for everyone. And everyone will probably fall in love with your lovely song.

0
0 ratings